  0
SECTION
  2
HEADER
  9
$ACADVER
  1
AC1015
  9
$ACADMAINTVER
 70
    10
  9
$DWGCODEPAGE
  3
ANSI_1252
  9
$INSBASE
 10
0.0
 20
0.0
 30
0.0
  9
$EXTMIN
 10
-3.878064145057734
 20
-3.578524108810384
 30
0.0
  9
$EXTMAX
 10
42.02224547609882
 20
21.89507919667934
 30
0.0
  9
$LIMMIN
 10
0.0
 20
0.0
  9
$LIMMAX
 10
12.0
 20
9.0
  9
$ORTHOMODE
 70
     1
  9
$REGENMODE
 70
     1
  9
$FILLMODE
 70
     1
  9
$QTEXTMODE
 70
     0
  9
$MIRRTEXT
 70
     0
  9
$LTSCALE
 40
1.0
  9
$ATTMODE
 70
     1
  9
$TEXTSIZE
 40
0.75
  9
$TRACEWID
 40
0.05
  9
$TEXTSTYLE
  7
SWTSTEXT
  9
$CLAYER
  8
0
  9
$CELTYPE
  6
BYLAYER
  9
$CECOLOR
 62
   256
  9
$CELTSCALE
 40
1.0
  9
$DISPSILH
 70
     0
  9
$DIMSCALE
 40
8.0
  9
$DIMASZ
 40
0.125
  9
$DIMEXO
 40
0.0
  9
$DIMDLI
 40
0.375
  9
$DIMRND
 40
0.0
  9
$DIMDLE
 40
0.0
  9
$DIMEXE
 40
0.125
  9
$DIMTP
 40
0.0
  9
$DIMTM
 40
0.0
  9
$DIMTXT
 40
0.125
  9
$DIMCEN
 40
0.1875
  9
$DIMTSZ
 40
0.0
  9
$DIMTOL
 70
     0
  9
$DIMLIM
 70
     0
  9
$DIMTIH
 70
     1
  9
$DIMTOH
 70
     0
  9
$DIMSE1
 70
     0
  9
$DIMSE2
 70
     0
  9
$DIMTAD
 70
     1
  9
$DIMZIN
 70
     3
  9
$DIMBLK
  1

  9
$DIMASO
 70
     1
  9
$DIMSHO
 70
     1
  9
$DIMPOST
  1

  9
$DIMAPOST
  1

  9
$DIMALT
 70
     0
  9
$DIMALTD
 70
     1
  9
$DIMALTF
 40
25.4
  9
$DIMLFAC
 40
1.0
  9
$DIMTOFL
 70
     0
  9
$DIMTVP
 40
0.0
  9
$DIMTIX
 70
     0
  9
$DIMSOXD
 70
     0
  9
$DIMSAH
 70
     1
  9
$DIMBLK1
  1
OBLIQUE
  9
$DIMBLK2
  1
OBLIQUE
  9
$DIMSTYLE
  2
SCADARCH
  9
$DIMCLRD
 70
   256
  9
$DIMCLRE
 70
   256
  9
$DIMCLRT
 70
   256
  9
$DIMTFAC
 40
1.0
  9
$DIMGAP
 40
0.125
  9
$DIMJUST
 70
     0
  9
$DIMSD1
 70
     0
  9
$DIMSD2
 70
     0
  9
$DIMTOLJ
 70
     1
  9
$DIMTZIN
 70
     3
  9
$DIMALTZ
 70
     3
  9
$DIMALTTZ
 70
     3
  9
$DIMUPT
 70
     0
  9
$DIMDEC
 70
     4
  9
$DIMTDEC
 70
     4
  9
$DIMALTU
 70
     4
  9
$DIMALTTD
 70
     1
  9
$DIMTXSTY
  7
SWTSTEXT
  9
$DIMAUNIT
 70
     0
  9
$DIMADEC
 70
     0
  9
$DIMALTRND
 40
0.0
  9
$DIMAZIN
 70
     0
  9
$DIMDSEP
 70
    46
  9
$DIMATFIT
 70
     3
  9
$DIMFRAC
 70
     2
  9
$DIMLDRBLK
  1

  9
$DIMLUNIT
 70
     4
  9
$DIMLWD
 70
    -2
  9
$DIMLWE
 70
    -2
  9
$DIMTMOVE
 70
     2
  9
$LUNITS
 70
     4
  9
$LUPREC
 70
     6
  9
$SKETCHINC
 40
0.1
  9
$FILLETRAD
 40
0.0625
  9
$AUNITS
 70
     0
  9
$AUPREC
 70
     0
  9
$MENU
  1
.
  9
$ELEVATION
 40
0.0
  9
$PELEVATION
 40
0.0
  9
$THICKNESS
 40
0.0
  9
$LIMCHECK
 70
     0
  9
$CHAMFERA
 40
0.0
  9
$CHAMFERB
 40
0.0
  9
$CHAMFERC
 40
1.0
  9
$CHAMFERD
 40
0.0
  9
$SKPOLY
 70
     0
  9
$TDCREATE
 40
2451557.970335648
  9
$TDUCREATE
 40
2451558.303668981
  9
$TDUPDATE
 40
2456274.675808368
  9
$TDUUPDATE
 40
2456275.009141701
  9
$TDINDWG
 40
0.8266597454
  9
$TDUSRTIMER
 40
0.8266597454
  9
$USRTIMER
 70
     1
  9
$ANGBASE
 50
0.0
  9
$ANGDIR
 70
     0
  9
$PDMODE
 70
     0
  9
$PDSIZE
 40
0.0
  9
$PLINEWID
 40
0.0
  9
$SPLFRAME
 70
     0
  9
$SPLINETYPE
 70
     6
  9
$SPLINESEGS
 70
    32
  9
$HANDSEED
  5
135
  9
$SURFTAB1
 70
     6
  9
$SURFTAB2
 70
     6
  9
$SURFTYPE
 70
     6
  9
$SURFU
 70
     6
  9
$SURFV
 70
     6
  9
$UCSBASE
  2

  9
$UCSNAME
  2

  9
$UCSORG
 10
0.0
 20
0.0
 30
0.0
  9
$UCSXDIR
 10
1.0
 20
0.0
 30
0.0
  9
$UCSYDIR
 10
0.0
 20
1.0
 30
0.0
  9
$UCSORTHOREF
  2

  9
$UCSORTHOVIEW
 70
     0
  9
$UCSORGTOP
 10
0.0
 20
0.0
 30
0.0
  9
$UCSORGBOTTOM
 10
0.0
 20
0.0
 30
0.0
  9
$UCSORGLEFT
 10
0.0
 20
0.0
 30
0.0
  9
$UCSORGRIGHT
 10
0.0
 20
0.0
 30
0.0
  9
$UCSORGFRONT
 10
0.0
 20
0.0
 30
0.0
  9
$UCSORGBACK
 10
0.0
 20
0.0
 30
0.0
  9
$PUCSBASE
  2

  9
$PUCSNAME
  2

  9
$PUCSORG
 10
0.0
 20
0.0
 30
0.0
  9
$PUCSXDIR
 10
1.0
 20
0.0
 30
0.0
  9
$PUCSYDIR
 10
0.0
 20
1.0
 30
0.0
  9
$PUCSORTHOREF
  2

  9
$PUCSORTHOVIEW
 70
     0
  9
$PUCSORGTOP
 10
0.0
 20
0.0
 30
0.0
  9
$PUCSORGBOTTOM
 10
0.0
 20
0.0
 30
0.0
  9
$PUCSORGLEFT
 10
0.0
 20
0.0
 30
0.0
  9
$PUCSORGRIGHT
 10
0.0
 20
0.0
 30
0.0
  9
$PUCSORGFRONT
 10
0.0
 20
0.0
 30
0.0
  9
$PUCSORGBACK
 10
0.0
 20
0.0
 30
0.0
  9
$USERI1
 70
     0
  9
$USERI2
 70
     0
  9
$USERI3
 70
     0
  9
$USERI4
 70
     0
  9
$USERI5
 70
     0
  9
$USERR1
 40
0.0
  9
$USERR2
 40
0.0
  9
$USERR3
 40
0.0
  9
$USERR4
 40
0.0
  9
$USERR5
 40
0.0
  9
$WORLDVIEW
 70
     1
  9
$SHADEDGE
 70
     3
  9
$SHADEDIF
 70
    70
  9
$TILEMODE
 70
     1
  9
$MAXACTVP
 70
    48
  9
$PINSBASE
 10
0.0
 20
0.0
 30
0.0
  9
$PLIMCHECK
 70
     0
  9
$PEXTMIN
 10
-19.52890750236171
 20
-45.690400130809
 30
0.0
  9
$PEXTMAX
 10
66.90942319586646
 20
22.73872795750724
 30
0.0
  9
$PLIMMIN
 10
0.0
 20
0.0
  9
$PLIMMAX
 10
12.0
 20
9.0
  9
$UNITMODE
 70
     0
  9
$VISRETAIN
 70
     1
  9
$PLINEGEN
 70
     0
  9
$PSLTSCALE
 70
     1
  9
$TREEDEPTH
 70
  3020
  9
$CMLSTYLE
  2
STANDARD
  9
$CMLJUST
 70
     0
  9
$CMLSCALE
 40
1.0
  9
$PROXYGRAPHICS
 70
     1
  9
$MEASUREMENT
 70
     0
  9
$CELWEIGHT
370
    -1
  9
$ENDCAPS
280
     0
  9
$JOINSTYLE
280
     0
  9
$LWDISPLAY
290
     0
  9
$INSUNITS
 70
     0
  9
$HYPERLINKBASE
  1

  9
$STYLESHEET
  1

  9
$XEDIT
290
     1
  9
$CEPSNTYPE
380
     0
  9
$PSTYLEMODE
290
     1
  9
$FINGERPRINTGUID
  2
{5110CC6F-5F1E-11D4-8621-95C6F6801C19}
  9
$VERSIONGUID
  2
{5110CC71-5F1E-11D4-8621-95C6F6801C19}
  9
$EXTNAMES
290
     1
  9
$PSVPSCALE
 40
0.0
  9
$OLESTARTUP
290
     0
  0
ENDSEC
  0
SECTION
  2
CLASSES
  0
CLASS
  1
DICTIONARYVAR
  2
AcDbDictionaryVar
  3
AutoCAD 2000
 90
    32768
280
     0
281
     0
  0
CLASS
  1
ACMESTATEMGR
  2
AcMeStateMgr
  3
AcMeServices
 90
    32768
280
     1
281
     0
  0
CLASS
  1
ACMESCOPE
  2
AcMeScope
  3
AcMeServices
 90
    32768
280
     1
281
     0
  0
CLASS
  1
ACMECOMMANDHISTORY
  2
AcMeCommandHistory
  3
AcMeServices
 90
    32768
280
     1
281
     0
  0
CLASS
  1
ACRFINSADJUSTERMGR
  2
AcRfInsAdjusterMgr
  3
AcMeServices
 90
    32768
280
     1
281
     0
  0
CLASS
  1
ACIMSYSVARMAN
  2
AcImSysVarManager
  3
AcMeServices
 90
    32768
280
     1
281
     0
  0
CLASS
  1
ACIMREALSYSVAR
  2
AcImRealSysVar
  3
AcMeServices
 90
    32768
280
     1
281
     0
  0
CLASS
  1
ACIMINTSYSVAR
  2
AcImIntSysVar
  3
AcMeServices
 90
    32768
280
     1
281
     0
  0
CLASS
  1
ACMEDRAWINGMAN
  2
AcMeDrawingMan
  3
AcMeServices
 90
    32768
280
     1
281
     0
  0
CLASS
  1
ACMEVIEW
  2
AcMeView
  3
AcMeServices
 90
    32768
280
     1
281
     0
  0
CLASS
  1
ACDBENTITYCACHE
  2
AcMeEntityCache
  3
AcMeServices
 90
    32768
280
     1
281
     0
  0
CLASS
  1
ACGREFMASTER
  2
AcGrefMaster
  3
AcGrefServices
 90
    32768
280
     1
281
     0
  0
CLASS
  1
AMIMASTER
  2
AmiMaster
  3
AmiServices
 90
    32768
280
     1
281
     0
  0
CLASS
  1
ACASGREFMASTER
  2
AcAsGrefMaster
  3
AutoSurfResolverServices
 90
    32768
280
     1
281
     0
  0
CLASS
  1
ADAPPL
  2
AcAdAppl
  3
DesignerServices
 90
    32768
280
     1
281
     0
  0
CLASS
  1
DEPMGR
  2
AcAdDepMgr
  3
DesignerServices
 90
    32768
280
     1
281
     0
  0
CLASS
  1
PARAMMGR
  2
AcAdParamMgr
  3
DesignerServices
 90
    32768
280
     1
281
     0
  0
CLASS
  1
PARAMSCOPE
  2
AcAdParamScope
  3
DesignerServices
 90
    32768
280
     1
281
     0
  0
CLASS
  1
ACIMSTRSYSVAR
  2
AcImStrSysVar
  3
AcMeServices
 90
    32768
280
     1
281
     0
  0
CLASS
  1
NAMEDAPPL
  2
AcAdNamedAppl
  3
DesignerServices
 90
    32768
280
     1
281
     0
  0
CLASS
  1
ADHNTMPLT
  2
AdHoleNoteTemplateMgr
  3
DesignerServices
 90
    32768
280
     1
281
     0
  0
CLASS
  1
AM_HNTEMPLATE_MGR_NAME
  2
AdHoleNoteTemplateMgrName
  3
DesignerServices
 90
    32768
280
     1
281
     0
  0
CLASS
  1
ACADGREFMODULE
  2
AcAdGrefModule
  3
AdGrefServices
 90
    32768
280
     1
281
     0
  0
CLASS
  1
AM_DRAWING_MGR
  2
AcDmDwgMgr
  3
AcMechDwgViewMgmt
 90
    32768
280
     1
281
     0
  0
CLASS
  1
AM_DWG_DOCUMENT
  2
AcDmDwgDocument
  3
AcMechDwgViewMgmt
 90
    32768
280
     1
281
     0
  0
CLASS
  1
AM_DWG_SHEET
  2
AcDmSheet
  3
AcMechDwgViewMgmt
 90
    32768
280
     1
281
     0
  0
CLASS
  1
AM_VIEWDIMPARMAP
  2
AcDmViewDimParMap
  3
AcMechDwgViewMgmt
 90
    32768
280
     1
281
     0
  0
CLASS
  1
AM_DWGMGR_NAME
  2
AcDmDwgMgrName
  3
AcMechDwgViewMgmt
 90
    32768
280
     1
281
     0
  0
CLASS
  1
ACAMPROJECT
  2
AcAmProject
  3
DesignerAssemblies
 90
    32768
280
     1
281
     0
  0
CLASS
  1
ACAMGRCOMPSET
  2
AcAmGrCompSet
  3
DesignerAssemblies
 90
    32768
280
     1
281
     0
  0
CLASS
  1
ACAMGRCOMPDEFSET
  2
AcAmGrCompDefSet
  3
DesignerAssemblies
 90
    32768
280
     1
281
     0
  0
CLASS
  1
ACAMGRCOMPDEF
  2
AcAmGrCompDef
  3
DesignerAssemblies
 90
    32768
280
     1
281
     0
  0
CLASS
  1
ACCMCONTEXT
  2
AcCmContext
  3
DesignerAssemblies
 90
    32768
280
     1
281
     0
  0
CLASS
  1
ACAMCOMPDEF
  2
AcAmCompDef
  3
DesignerAssemblies
 90
    32768
280
     1
281
     0
  0
CLASS
  1
ACAMCOMPDEFMGR
  2
AcAmCompDefMgr
  3
DesignerAssemblies
 90
    32768
280
     1
281
     0
  0
CLASS
  1
AMCONTEXTMGR
  2
AcAmContextMgr
  3
DesignerAssemblies
 90
    32768
280
     1
281
     0
  0
CLASS
  1
ACAMCONTEXTMODELER
  2
AcAmContextModeler
  3
DesignerAssemblies
 90
    32768
280
     1
281
     0
  0
CLASS
  1
ACMDATADICTIONARY
  2
AcmDataDictionary
  3
"AutoCAD/M"
 90
    32768
280
     1
281
     0
  0
CLASS
  1
ACMDATAENTRYBLOCK
  2
AcmDataEntryBlock
  3
"AutoCAD/M"
 90
    32768
280
     1
281
     0
  0
CLASS
  1
ACDMVIEWGEOM
  2
AcDmViewGeometry
  3
AcMechDwgViewMgmt
 90
    32768
280
     1
281
     1
  0
CLASS
  1
CBROWSERAPPOBJECT
  2
CBrowserAppObject
  3
McadcomServices
 90
    32768
280
     1
281
     0
  0
CLASS
  1
IM_STATIC_MAN
  2
AcImStaticVarManager
  3
AcMeServices
 90
    32768
280
     1
281
     0
  0
CLASS
  1
ASAPP
  2
AcAsAppObject
  3
AutoSurfServices
 90
    32768
280
     1
281
     0
  0
CLASS
  1
ACIMDBLSTATICVAR
  2
AcImDblStaticVar
  3
AcMeServices
 90
    32768
280
     1
281
     0
  0
CLASS
  1
ACIMSTRSTATICVAR
  2
AcImStrStaticVar
  3
AcMeServices
 90
    32768
280
     1
281
     0
  0
CLASS
  1
ACIMINTSTATICVAR
  2
AcImIntStaticVar
  3
AcMeServices
 90
    32768
280
     1
281
     0
  0
CLASS
  1
CATALOGSTATE
  2
AcAmCatalogState
  3
DesignerAssemblies
 90
    32768
280
     1
281
     0
  0
CLASS
  1
DM_PLACEHOLDER
  2
AcDmSelsetPlaceholder
  3
AcMechDwgViewMgmt
 90
    32768
280
     1
281
     0
  0
CLASS
  1
LAYER_INDEX
  2
AcDbLayerIndex
  3
AutoCAD 2000
 90
    32768
280
     0
281
     0
  0
CLASS
  1
IDBUFFER
  2
AcDbIdBuffer
  3
AutoCAD 2000
 90
    32768
280
     0
281
     0
  0
CLASS
  1
LWPOLYLINE
  2
AcDbPolyline
  3
AutoCAD 2000
 90
    32768
280
     0
281
     1
  0
CLASS
  1
ACRFATTGENMGR
  2
AcRfAttGeneralMgr
  3
AcGrefServices
 90
    32768
280
     1
281
     0
  0
CLASS
  1
ADPART
  2
AcAdPart
  3
DesignerServices
 90
    32768
280
     1
281
     1
  0
CLASS
  1
ADBASE
  2
AcAdBase
  3
DesignerServices
 90
    32768
280
     1
281
     0
  0
CLASS
  1
BODYID
  2
AcAdBodyId
  3
DesignerServices
 90
    32768
280
     1
281
     0
  0
CLASS
  1
WORKPLANEDISPLAYMGR
  2
AcAdDisplayMgr
  3
DesignerServices
 90
    32768
280
     1
281
     0
  0
CLASS
  1
ACCMBODY
  2
AcCmBody
  3
DesignerAssemblies
 90
    32768
280
     1
281
     0
  0
CLASS
  1
ACAMGRCOMP
  2
AcAmGrComp
  3
DesignerAssemblies
 90
    32768
280
     1
281
     0
  0
CLASS
  1
ACAMCOMPFEEDBACK
  2
AcAmCompFeedback
  3
DesignerAssemblies
 90
    32768
280
     1
281
     0
  0
CLASS
  1
ACAMCOMP
  2
AcAmComp
  3
DesignerAssemblies
 90
    32768
280
     1
281
     0
  0
CLASS
  1
ACAMGRCOMPCLONE
  2
AcAmGrCompClone
  3
DesignerAssemblies
 90
    32768
280
     1
281
     0
  0
CLASS
  1
ACAMCLONEREACTOR
  2
AcAmGrCompCloneReactor
  3
DesignerAssemblies
 90
    32768
280
     1
281
     0
  0
CLASS
  1
ADDATUMPLANEABS
  2
AcAdDatumPlaneAbs
  3
DesignerServices
 90
    32768
280
     1
281
     0
  0
CLASS
  1
ACMELINEARARROW
  2
AcImLinearArrowDisplay
  3
AcMeServices
 90
    32768
280
     1
281
     1
  0
CLASS
  1
ADDATUMAXISABS
  2
AcAdDatumAxisAbs
  3
DesignerServices
 90
    32768
280
     1
281
     0
  0
CLASS
  1
ADDATUMORIENTEDPLANE
  2
AcAdDatumOrientedPlane
  3
DesignerServices
 90
    32768
280
     1
281
     0
  0
CLASS
  1
ACMEPLINE
  2
AcImPlineDisplay
  3
AcMeServices
 90
    32768
280
     1
281
     1
  0
CLASS
  1
ACADCIRCLEACAD
  2
AcAdVirtualCircleAcad
  3
DesignerServices
 90
    32768
280
     1
281
     0
  0
CLASS
  1
ACADREFLINEACAD
  2
AcAdVirtualReferenceLine
  3
DesignerServices
 90
    32768
280
     1
281
     0
  0
CLASS
  1
ACADCONSLINE
  2
AcAdConstrainedLine
  3
DesignerServices
 90
    32768
280
     1
281
     0
  0
CLASS
  1
ACADCONSGROUP
  2
AcAdConstraintGroup
  3
DesignerServices
 90
    32768
280
     1
281
     0
  0
CLASS
  1
ACADCONSCIRCLE
  2
AcAdConstrainedCircle
  3
DesignerServices
 90
    32768
280
     1
281
     0
  0
CLASS
  1
ACADCONSPOINT
  2
AcAdConstrainedPoint
  3
DesignerServices
 90
    32768
280
     1
281
     0
  0
CLASS
  1
ACADIMPPTACAD
  2
AcAdVirtualImplicitPoint
  3
DesignerServices
 90
    32768
280
     1
281
     0
  0
CLASS
  1
ADCTRPTCNS
  2
AcAdCenterPointConstr
  3
DesignerServices
 90
    32768
280
     1
281
     0
  0
CLASS
  1
ADCLPROF2D
  2
AcAdClosedProfile2d
  3
DesignerServices
 90
    32768
280
     1
281
     0
  0
CLASS
  1
PARAM
  2
AcAdParam
  3
DesignerServices
 90
    32768
280
     1
281
     0
  0
CLASS
  1
ADEXTRUSIONBLIND
  2
AcAdExtrusionBlind
  3
DesignerServices
 90
    32768
280
     1
281
     0
  0
CLASS
  1
DEPEDGEFEATUREORDERING
  2
AcAdDepEdgeFeatureOrdering
  3
DesignerServices
 90
    32768
280
     1
281
     0
  0
CLASS
  1
FACEID
  2
AcAdFaceId
  3
DesignerServices
 90
    32768
280
     1
281
     0
  0
CLASS
  1
ADHOLLOWFEAT
  2
AcAdHollowFeat
  3
DesignerServices
 90
    32768
280
     1
281
     0
  0
CLASS
  1
ADPLANEID
  2
AcAdPlaneId
  3
DesignerServices
 90
    32768
280
     1
281
     0
  0
CLASS
  1
DEPEDGESECONDARYDEPID
  2
AcAdDepEdgeSecondaryDepId
  3
DesignerServices
 90
    32768
280
     1
281
     0
  0
CLASS
  1
ADDATUMPLANEFACE
  2
AcAdDatumPlaneFace
  3
DesignerServices
 90
    32768
280
     1
281
     0
  0
CLASS
  1
ADPLANEID
  2
AcAdSurfGeomId
  3
DesignerServices
 90
    32768
280
     1
281
     0
  0
CLASS
  1
ADDATUMAXISCENTER
  2
AcAdDatumAxisCenter
  3
DesignerServices
 90
    32768
280
     1
281
     0
  0
CLASS
  1
ADDATUMPOINTAXISPLANE
  2
AcAdDatumPointAxisPlane
  3
DesignerServices
 90
    32768
280
     1
281
     0
  0
CLASS
  1
ADHOLEFEAT
  2
AcAdHoleFeat
  3
DesignerServices
 90
    32768
280
     1
281
     0
  0
CLASS
  1
ACADLINEACAD
  2
AcAdVirtualBoundedLineAcad
  3
DesignerServices
 90
    32768
280
     1
281
     0
  0
CLASS
  1
ACADARCACAD
  2
AcAdVirtualArcAcad
  3
DesignerServices
 90
    32768
280
     1
281
     0
  0
CLASS
  1
ADPCURCNS
  2
AcAdPointCurveConstr
  3
DesignerServices
 90
    32768
280
     1
281
     0
  0
CLASS
  1
ADVERCNS
  2
AcAdVerticalConstr
  3
DesignerServices
 90
    32768
280
     1
281
     0
  0
CLASS
  1
ADHORCNS
  2
AcAdHorizontalConstr
  3
DesignerServices
 90
    32768
280
     1
281
     0
  0
CLASS
  1
ADTANCNS
  2
AcAdTangentConstr
  3
DesignerServices
 90
    32768
280
     1
281
     0
  0
CLASS
  1
ADEQRADCNS
  2
AcAdEqualRadiusConstr
  3
DesignerServices
 90
    32768
280
     1
281
     0
  0
CLASS
  1
ADPATH2D
  2
AcAdPath2d
  3
DesignerServices
 90
    32768
280
     1
281
     0
  0
CLASS
  1
DATUMPLANEDISPLAY
  2
AcAdDatumPlaneDisplay
  3
DesignerServices
 90
    32768
280
     1
281
     1
  0
CLASS
  1
ADDATUMPLANEXSECT
  2
AcAdDatumPlaneXSect
  3
DesignerServices
 90
    32768
280
     1
281
     0
  0
CLASS
  1
DATUMPOINTDISPLAY
  2
AcAdDatumPointDisplay
  3
DesignerServices
 90
    32768
280
     1
281
     1
  0
CLASS
  1
ADDATUMPOINTPATHSTART
  2
AcAdDatumPointPathStart
  3
DesignerServices
 90
    32768
280
     1
281
     0
  0
CLASS
  1
ADSWEEP
  2
AcAdSweep
  3
DesignerServices
 90
    32768
280
     1
281
     0
  0
CLASS
  1
ACADVIRTUALPOINTDATUMID
  2
AcAdVirtualPointDatumId
  3
DesignerServices
 90
    32768
280
     1
281
     0
  0
CLASS
  1
ADHDISTCNS
  2
AcAdHorizontalDistanceConstr
  3
DesignerServices
 90
    32768
280
     1
281
     0
  0
CLASS
  1
ADRADCNS
  2
AcAdAcadRadiusConstr
  3
DesignerServices
 90
    32768
280
     1
281
     0
  0
CLASS
  1
AGDICTIONARY
  2
AgDictionary
  3
"AccelView"
 90
    32769
280
     1
281
     0
  0
CLASS
  1
ACAMGRBLOCKRECORD
  2
AcAmGrBlockRecord
  3
DesignerAssemblies
 90
    32768
280
     1
281
     0
  0
CLASS
  1
ACAMVIEWREACTOR
  2
AcAmViewReactor
  3
DesignerAssemblies
 90
    32768
280
     1
281
     0
  0
CLASS
  1
AMVIEW
  2
AcAmView
  3
DesignerAssemblies
 90
    32768
280
     1
281
     0
  0
CLASS
  1
ACAMVIEWCONTEXT
  2
AcAmViewContext
  3
DesignerAssemblies
 90
    32768
280
     1
281
     0
  0
CLASS
  1
ACAMCOMPVIEWREACTOR
  2
AcAmGrCompViewReactor
  3
DesignerAssemblies
 90
    32768
280
     1
281
     0
  0
CLASS
  1
ACAMGRCOMPVIEW
  2
AcAmGrCompView
  3
DesignerAssemblies
 90
    32768
280
     1
281
     0
  0
CLASS
  1
ACAMVIEWENTITYFILTER
  2
AcAmViewEntityFilter
  3
DesignerAssemblies
 90
    32768
280
     1
281
     0
  0
CLASS
  1
AM_ABS_PLANE
  2
AcDmAbsPlnDef
  3
AcMechDwgViewMgmt
 90
    32768
280
     1
281
     0
  0
CLASS
  1
AM_ABS_AXIS
  2
AcDmAbsAxisDef
  3
AcMechDwgViewMgmt
 90
    32768
280
     1
281
     0
  0
CLASS
  1
AM_BASE_VIEW_ORIENT
  2
AcDmBaseViewOr
  3
AcMechDwgViewMgmt
 90
    32768
280
     1
281
     0
  0
CLASS
  1
AM_DWG_VIEWPORT
  2
AcDmViewport
  3
AcMechDwgViewMgmt
 90
    32768
280
     1
281
     0
  0
CLASS
  1
AM_VIEW_DISPLAY
  2
AcDmDwgViewDisplay
  3
AcMechDwgViewMgmt
 90
    32768
280
     1
281
     0
  0
CLASS
  1
AM_BASE_VIEW
  2
AcDmBaseView
  3
AcMechDwgViewMgmt
 90
    32768
280
     1
281
     0
  0
CLASS
  1
ACDMVWEDARC
  2
AcDmViewEdgeArc
  3
AcMechDwgViewMgmt
 90
    32768
280
     1
281
     1
  0
CLASS
  1
ACDMVWEDCIRC
  2
AcDmViewEdgeCircle
  3
AcMechDwgViewMgmt
 90
    32768
280
     1
281
     1
  0
CLASS
  1
ACDMVWEDLINE
  2
AcDmViewEdgeLine
  3
AcMechDwgViewMgmt
 90
    32768
280
     1
281
     1
  0
CLASS
  1
AM_ISO_VIEW_ORIENT
  2
AcDmIsoViewOr
  3
AcMechDwgViewMgmt
 90
    32768
280
     1
281
     0
  0
CLASS
  1
AM_ISO_VIEW
  2
AcDmIsoView
  3
AcMechDwgViewMgmt
 90
    32768
280
     1
281
     0
  0
CLASS
  1
ACDMVWEDSPLINE
  2
AcDmViewEdgeSpline
  3
AcMechDwgViewMgmt
 90
    32768
280
     1
281
     1
  0
CLASS
  1
ACDBDICTIONARYWDFLT
  2
AcDbDictionaryWithDefault
  3
AutoCAD 2000
 90
        0
280
     1
281
     0
  0
CLASS
  1
ACDBPLACEHOLDER
  2
AcDbPlaceHolder
  3
AutoCAD 2000
 90
        0
280
     1
281
     0
  0
CLASS
  1
LAYOUT
  2
AcDbLayout
  3
AutoCAD 2000
 90
        0
280
     1
281
     0
  0
CLASS
  1
RASTERVARIABLES
  2
AcDbRasterVariables
  3
ISM
 90
    32768
280
     0
281
     0
  0
CLASS
  1
IMAGEDEF
  2
AcDbRasterImageDef
  3
ISM
 90
    32768
280
     0
281
     0
  0
CLASS
  1
IMAGEDEF_REACTOR
  2
AcDbRasterImageDefReactor
  3
ISM
 90
    32769
280
     0
281
     0
  0
CLASS
  1
IMAGE
  2
AcDbRasterImage
  3
ISM
 90
    32895
280
     0
281
     1
  0
CLASS
  1
SORTENTSTABLE
  2
AcDbSortentsTable
  3
AutoCAD 2000
 90
        0
280
     0
281
     0
  0
CLASS
  1
LONG_TRANSACTION
  2
AcDbLongTransaction
  3
AutoCAD 2000
 90
    32768
280
     1
281
     0
  0
CLASS
  1
LWPOLYLINE
  2
AcDbPolyline
  3
AutoCAD 2000
 90
    32768
280
     0
281
     1
  0
CLASS
  1
HATCH
  2
AcDbHatch
  3
AutoCAD 2000
 90
    32768
280
     0
281
     1
  0
CLASS
  1
XRECORD
  2
AcDbXrecord
  3
AutoCAD 2000
 90
    32768
280
     0
281
     0
  0
CLASS
  1
LONG_TRANSACTION
  2
AcDbLongTransaction
  3
AutoCAD 2000
 90
    32768
280
     1
281
     0
  0
CLASS
  1
LWPOLYLINE
  2
AcDbPolyline
  3
AutoCAD 2000
 90
    32768
280
     0
281
     1
  0
CLASS
  1
HATCH
  2
AcDbHatch
  3
AutoCAD 2000
 90
    32768
280
     0
281
     1
  0
CLASS
  1
XRECORD
  2
AcDbXrecord
  3
AutoCAD 2000
 90
    32768
280
     0
281
     0
  0
CLASS
  1
LONG_TRANSACTION
  2
AcDbLongTransaction
  3
AutoCAD 2000
 90
    32768
280
     1
281
     0
  0
CLASS
  1
LWPOLYLINE
  2
AcDbPolyline
  3
AutoCAD 2000
 90
    32768
280
     0
281
     1
  0
CLASS
  1
HATCH
  2
AcDbHatch
  3
AutoCAD 2000
 90
    32768
280
     0
281
     1
  0
CLASS
  1
XRECORD
  2
AcDbXrecord
  3
AutoCAD 2000
 90
    32768
280
     0
281
     0
  0
CLASS
  1
LONG_TRANSACTION
  2
AcDbLongTransaction
  3
AutoCAD 2000
 90
    32768
280
     0
281
     0
  0
CLASS
  1
LWPOLYLINE
  2
AcDbPolyline
  3
AutoCAD 2000
 90
    32768
280
     0
281
     1
  0
CLASS
  1
HATCH
  2
AcDbHatch
  3
AutoCAD 2000
 90
    32768
280
     0
281
     1
  0
CLASS
  1
XRECORD
  2
AcDbXrecord
  3
AutoCAD 2000
 90
    32768
280
     0
281
     0
  0
CLASS
  1
LONG_TRANSACTION
  2
AcDbLongTransaction
  3
AutoCAD 2000
 90
    32768
280
     0
281
     0
  0
CLASS
  1
LWPOLYLINE
  2
AcDbPolyline
  3
AutoCAD 2000
 90
    32768
280
     0
281
     1
  0
CLASS
  1
HATCH
  2
AcDbHatch
  3
AutoCAD 2000
 90
    32768
280
     0
281
     1
  0
CLASS
  1
XRECORD
  2
AcDbXrecord
  3
AutoCAD 2000
 90
    32768
280
     0
281
     0
  0
ENDSEC
  0
SECTION
  2
TABLES
  0
TABLE
  2
VPORT
  5
17
330
0
100
AcDbSymbolTable
 70
     2
  0
VPORT
  5
134
330
17
100
AcDbSymbolTableRecord
100
AcDbViewportTableRecord
  2
*Active
 70
     0
 10
0.0
 20
0.0
 11
1.0
 21
1.0
 12
22.00900878684753
 22
9.158229070373035
 13
0.0
 23
0.0
 14
0.0625
 24
0.0625
 15
0.5
 25
0.5
 16
0.0
 26
0.0
 36
1.0
 17
0.0
 27
0.0
 37
0.0
 40
25.66266239081018
 41
2.145348837209302
 42
50.0
 43
0.0
 44
0.0
 50
0.0
 51
0.0
 71
     0
 72
 20000
 73
     1
 74
     1
 75
     0
 76
     0
 77
     0
 78
     0
281
     0
 65
     1
110
0.0
120
0.0
130
0.0
111
1.0
121
0.0
131
0.0
112
0.0
122
1.0
132
0.0
 79
     0
146
0.0
  0
ENDTAB
  0
TABLE
  2
LTYPE
  5
12
330
0
100
AcDbSymbolTable
 70
     1
  0
LTYPE
  5
13
330
12
100
AcDbSymbolTableRecord
100
AcDbLinetypeTableRecord
  2
BYBLOCK
 70
     0
  3

 72
    65
 73
     0
 40
0.0
  0
LTYPE
  5
14
330
12
100
AcDbSymbolTableRecord
100
AcDbLinetypeTableRecord
  2
BYLAYER
 70
     0
  3

 72
    65
 73
     0
 40
0.0
  0
LTYPE
  5
8
330
12
100
AcDbSymbolTableRecord
100
AcDbLinetypeTableRecord
  2
CONTINUOUS
 70
     0
  3
Solid line
 72
    65
 73
     0
 40
0.0
  0
ENDTAB
  0
TABLE
  2
LAYER
  5
F
330
0
100
AcDbSymbolTable
 70
     3
  0
LAYER
  5
7
330
F
100
AcDbSymbolTableRecord
100
AcDbLayerTableRecord
  2
0
 70
     0
 62
     7
  6
CONTINUOUS
370
    -3
390
9D
  0
LAYER
  5
2D
330
F
100
AcDbSymbolTableRecord
100
AcDbLayerTableRecord
  2
R-SWTS-DET1
 70
     0
 62
     1
  6
CONTINUOUS
370
    -3
390
9D
  0
LAYER
  5
22
330
F
100
AcDbSymbolTableRecord
100
AcDbLayerTableRecord
  2
R-ANNO-TEXT
 70
     0
 62
     6
  6
CONTINUOUS
370
    -3
390
9D
  0
ENDTAB
  0
TABLE
  2
STYLE
  5
10
330
0
100
AcDbSymbolTable
 70
     2
  0
STYLE
  5
11
330
10
100
AcDbSymbolTableRecord
100
AcDbTextStyleTableRecord
  2
STANDARD
 70
     0
 40
0.0
 41
1.0
 50
0.0
 71
     0
 42
0.2
  3
txt
  4

  0
STYLE
  5
23
330
10
100
AcDbSymbolTableRecord
100
AcDbTextStyleTableRecord
  2
SWTSTEXT
 70
     0
 40
0.0
 41
1.0
 50
0.0
 71
     0
 42
0.75
  3
simplex.shx
  4

  0
ENDTAB
  0
TABLE
  2
VIEW
  5
15
330
0
100
AcDbSymbolTable
 70
     0
  0
ENDTAB
  0
TABLE
  2
UCS
  5
16
330
0
100
AcDbSymbolTable
 70
     0
  0
ENDTAB
  0
TABLE
  2
APPID
  5
19
330
0
100
AcDbSymbolTable
 70
     1
  0
APPID
  5
1A
330
19
100
AcDbSymbolTableRecord
100
AcDbRegAppTableRecord
  2
ACAD
 70
     0
  0
ENDTAB
  0
TABLE
  2
DIMSTYLE
  5
1B
330
0
100
AcDbSymbolTable
 70
     1
100
AcDbDimStyleTable
 71
     0
  0
DIMSTYLE
105
25
102
{ACAD_REACTORS
330
8E
330
8F
330
90
330
91
330
A5
102
}
330
1B
100
AcDbSymbolTableRecord
100
AcDbDimStyleTableRecord
  2
SCADARCH
 70
     0
 40
8.0
 41
0.125
 42
0.0
 43
0.375
 44
0.125
 74
     0
 77
     1
 78
     3
140
0.125
141
0.1875
147
0.125
171
     1
173
     1
176
   256
177
   256
178
   256
273
     4
274
     1
276
     2
277
     4
279
     2
284
     3
285
     3
286
     3
340
23
341
28
343
28
344
28
  0
ENDTAB
  0
TABLE
  2
BLOCK_RECORD
  5
1
330
0
100
AcDbSymbolTable
 70
     1
  0
BLOCK_RECORD
  5
2
102
{ACAD_XDICTIONARY
360
3
102
}
330
1
100
AcDbSymbolTableRecord
100
AcDbBlockTableRecord
  2
*MODEL_SPACE
340
A0
  0
BLOCK_RECORD
  5
A
102
{ACAD_XDICTIONARY
360
B
102
}
330
1
100
AcDbSymbolTableRecord
100
AcDbBlockTableRecord
  2
*PAPER_SPACE
340
A1
  0
BLOCK_RECORD
  5
28
330
1
100
AcDbSymbolTableRecord
100
AcDbBlockTableRecord
  2
_OBLIQUE
340
0
  0
ENDTAB
  0
ENDSEC
  0
SECTION
  2
BLOCKS
  0
BLOCK
  5
6
330
2
100
AcDbEntity
  8
0
100
AcDbBlockBegin
  2
*MODEL_SPACE
 70
     0
 10
0.0
 20
0.0
 30
0.0
  3
*MODEL_SPACE
  1

  0
ENDBLK
  5
9
330
2
100
AcDbEntity
  8
0
100
AcDbBlockEnd
  0
BLOCK
  5
D
330
A
100
AcDbEntity
 67
     1
  8
0
100
AcDbBlockBegin
  2
*PAPER_SPACE
 70
     0
 10
0.0
 20
0.0
 30
0.0
  3
*PAPER_SPACE
  1

  0
ENDBLK
  5
E
330
A
100
AcDbEntity
 67
     1
  8
0
100
AcDbBlockEnd
  0
BLOCK
  5
2A
330
28
100
AcDbEntity
  8
0
100
AcDbBlockBegin
  2
_OBLIQUE
 70
     0
 10
0.0
 20
0.0
 30
0.0
  3
_OBLIQUE
  1

  0
LINE
  5
29
330
28
100
AcDbEntity
  8
0
  6
ByBlock
 62
     0
100
AcDbLine
 10
-0.5
 20
-0.5
 30
0.0
 11
0.5
 21
0.5
 31
0.0
  0
ENDBLK
  5
2B
330
28
100
AcDbEntity
  8
0
100
AcDbBlockEnd
  0
ENDSEC
  0
SECTION
  2
ENTITIES
  0
LINE
  5
2C
330
2
100
AcDbEntity
  8
R-SWTS-DET1
100
AcDbLine
 10
-1.596535788696201
 20
5.402419886688875
 30
0.0
 11
12.11835211682591
 21
2.487230469801318
 31
0.0
  0
LINE
  5
2E
330
2
100
AcDbEntity
  8
R-SWTS-DET1
100
AcDbLine
 10
-1.596535788696201
 20
7.652419886688792
 30
0.0
 11
12.11835211682591
 21
4.737230469801318
 31
0.0
  0
LINE
  5
2F
330
2
100
AcDbEntity
  8
R-SWTS-DET1
100
AcDbLine
 10
-1.596535788696201
 20
5.402419886688875
 30
0.0
 11
-1.596535788696201
 21
6.27741988668879
 31
0.0
  0
LINE
  5
30
330
2
100
AcDbEntity
  8
R-SWTS-DET1
100
AcDbLine
 10
-1.596535788696201
 20
9.112230469801318
 30
0.0
 11
1.845679668691332
 21
8.380564987651624
 31
0.0
  0
LINE
  5
31
330
2
100
AcDbEntity
  8
R-SWTS-DET1
100
AcDbLine
 10
-1.596535788696201
 20
7.152419886688795
 30
0.0
 11
12.11835211682591
 21
4.237230469801318
 31
0.0
  0
LINE
  5
35
330
2
100
AcDbEntity
  8
R-SWTS-DET1
100
AcDbLine
 10
4.618352116825917
 20
6.362230469801318
 30
0.0
 11
4.618352116825917
 21
6.331404682326436
 31
0.0
  0
LINE
  5
36
330
2
100
AcDbEntity
  8
R-SWTS-DET1
100
AcDbLine
 10
12.11835211682591
 20
2.487230469801318
 30
0.0
 11
12.11835211682591
 21
3.362230469801303
 31
0.0
  0
LINE
  5
37
330
2
100
AcDbEntity
  8
R-SWTS-DET1
100
AcDbLine
 10
12.11835211682591
 20
4.737230469801318
 30
0.0
 11
21.83064393675357
 21
7.339631219606346
 31
0.0
  0
LINE
  5
38
330
2
100
AcDbEntity
  8
R-SWTS-DET1
100
AcDbLine
 10
-1.596535788696201
 20
6.527419886688804
 30
0.0
 11
12.11835211682591
 21
3.612230469801318
 31
0.0
  0
LINE
  5
39
330
2
100
AcDbEntity
  8
R-SWTS-DET1
100
AcDbLine
 10
-1.596535788696201
 20
6.277419886688804
 30
0.0
 11
12.11835211682591
 21
3.362230469801318
 31
0.0
  0
ARC
  5
3A
330
2
100
AcDbEntity
  8
R-SWTS-DET1
100
AcDbCircle
 10
12.07535485745665
 20
3.487230469801318
 30
0.0
 40
0.1321883667849303
100
AcDbArc
 50
288.9820937643759
 51
71.01790623562401
  0
ARC
  5
3B
330
2
100
AcDbEntity
  8
R-SWTS-DET1
100
AcDbCircle
 10
-1.639533048065459
 20
6.402419886688875
 30
0.0
 40
0.1321883667849303
100
AcDbArc
 50
288.9820937643759
 51
71.01790623562401
  0
LINE
  5
3C
330
2
100
AcDbEntity
  8
R-SWTS-DET1
100
AcDbLine
 10
-1.596535788696201
 20
6.527419886688804
 30
0.0
 11
-1.596535788696201
 21
9.112230469801318
 31
0.0
  0
LINE
  5
3D
330
2
100
AcDbEntity
  8
R-SWTS-DET1
100
AcDbLine
 10
12.11835211682591
 20
3.612230469801332
 30
0.0
 11
12.11835211682591
 21
4.737230469801318
 31
0.0
  0
LINE
  5
3E
330
2
100
AcDbEntity
  8
R-SWTS-DET1
100
AcDbLine
 10
21.82626556957996
 20
7.506834316203892
 30
0.0
 11
12.97867361992359
 21
9.387448040082233
 31
0.0
  0
LINE
  5
3F
330
2
100
AcDbEntity
  8
R-SWTS-DET1
100
AcDbLine
 10
-1.596535788696201
 20
8.612230469801318
 30
0.0
 11
1.845679668691332
 21
7.880564987651624
 31
0.0
  0
LINE
  5
40
330
2
100
AcDbEntity
  8
R-SWTS-DET1
100
AcDbLine
 10
1.845679668691332
 20
7.880564987651624
 30
0.0
 11
1.845679668691332
 21
8.380564987651624
 31
0.0
  0
LWPOLYLINE
  5
41
330
2
100
AcDbEntity
  8
R-SWTS-DET1
100
AcDbPolyline
 90
        3
 70
     0
 43
0.0
 10
1.845679668691332
 20
8.380564987651624
 10
2.868352116825917
 20
8.862230469801318
 42
-0.1435603713888363
 10
6.868352116825917
 20
9.487230469801318
 42
-4.266342715056826
  0
LWPOLYLINE
  5
42
330
2
100
AcDbEntity
  8
R-SWTS-DET1
100
AcDbPolyline
 90
        3
 70
     0
 43
0.0
 10
1.845679668691332
 20
7.880564987651624
 10
2.868352116825917
 20
8.362230469801318
 42
-0.1435603713888363
 10
6.868352116825917
 20
8.987230469801318
 42
-4.266342715056826
  0
LINE
  5
43
330
2
100
AcDbEntity
  8
R-SWTS-DET1
100
AcDbLine
 10
6.868352116825917
 20
8.987230469801318
 30
0.0
 11
6.868352116825917
 21
9.487230469801318
 31
0.0
  0
LINE
  5
44
330
2
100
AcDbEntity
  8
R-SWTS-DET1
100
AcDbLine
 10
6.868352116825917
 20
9.487230469801346
 30
0.0
 11
2.928420363363272
 21
10.32468881653187
 31
0.0
  0
LINE
  5
45
330
2
100
AcDbEntity
  8
R-SWTS-DET1
100
AcDbLine
 10
-1.596535788696201
 20
9.112230469801318
 30
0.0
 11
2.928420363363272
 21
10.32468881653187
 31
0.0
  0
LINE
  5
46
330
2
100
AcDbEntity
  8
R-SWTS-DET1
100
AcDbLine
 10
2.928420363363272
 20
10.32468881653187
 30
0.0
 11
2.928420363363272
 21
15.86223046980131
 31
0.0
  0
LINE
  5
47
330
2
100
AcDbEntity
  8
R-SWTS-DET1
100
AcDbLine
 10
1.845679668691332
 20
7.880564987651624
 30
0.0
 11
3.382522922692203
 21
7.553898869755428
 31
0.0
  0
LINE
  5
48
330
2
100
AcDbEntity
  8
R-SWTS-DET1
100
AcDbLine
 10
3.382522922692203
 20
7.553898869755428
 30
0.0
 11
3.382522922692203
 21
6.59408828664293
 31
0.0
  0
LWPOLYLINE
  5
49
330
2
100
AcDbEntity
  8
R-SWTS-DET1
100
AcDbPolyline
 90
        6
 70
     0
 43
0.0
 10
6.868352116825917
 20
8.987230469801318
 10
8.669809593224385
 20
8.604318862623301
 42
-0.3166821099273862
 10
8.017676401445442
 20
7.926230616906025
 42
-0.0750975617626323
 10
7.130834053929675
 20
7.889305057949911
 42
0.0123205370264094
 10
5.36946615054785
 20
8.037007293774593
 42
0.1498744330056118
 10
3.382522922692203
 20
7.553898869755428
 42
27.65838049421608
  0
LWPOLYLINE
  5
4A
330
2
100
AcDbEntity
  8
R-SWTS-DET1
100
AcDbPolyline
 90
        5
 70
     0
 43
0.0
 10
8.669809593224385
 20
7.443093723255742
 42
-0.3771400322179936
 10
8.017676401445442
 20
6.997245821268393
 42
-0.0750975617626323
 10
7.130834053929675
 20
6.960320262312279
 42
0.0123205370264094
 10
5.36946615054785
 20
7.108022498136961
 42
0.1493266303649454
 10
3.382522922692203
 20
6.59408828664293
  0
LINE
  5
4B
330
2
100
AcDbEntity
  8
R-SWTS-DET1
100
AcDbLine
 10
8.669809593224385
 20
7.443093723255742
 30
0.0
 11
8.669809593224385
 21
8.604318862623301
 31
0.0
  0
LWPOLYLINE
  5
4C
330
2
100
AcDbEntity
  8
R-SWTS-DET1
100
AcDbPolyline
 90
        7
 70
     0
 43
0.0
 10
8.669809593224385
 20
7.443093723255557
 10
8.669809593224329
 20
9.640360353914473
 42
0.1335548252212603
 10
8.394334224022202
 20
10.65328423939229
 10
5.552558370972292
 20
15.49146855319139
 42
0.3284232383392695
 10
4.27082834459361
 20
16.04105147511558
 42
-0.0002521359960983
 10
3.68367310250187
 20
15.90414517789628
 42
-0.0867823388818624
 10
2.928420363363272
 20
15.86223046980131
 42
-3.1458593796298
  0
LWPOLYLINE
  5
4D
330
2
100
AcDbEntity
  8
R-SWTS-DET1
100
AcDbPolyline
 90
        8
 70
     0
 43
0.0
 10
8.669809593224385
 20
7.443093723255557
 10
9.169809593224442
 20
7.577068319471152
 10
9.169809593224329
 20
9.640360353914473
 42
0.1335548252212603
 10
8.894334224022202
 20
10.65328423939229
 10
6.052558370972292
 20
15.49146855319139
 42
0.2085092679692298
 10
4.690193979424975
 20
16.23789421405303
 42
0.072496841810545
 10
3.878117225121968
 20
16.18214193378054
 42
-0.0459907761781096
 10
3.189543294457507
 20
16.10110753870705
 42
-3.1458593796298
  0
LINE
  5
4E
330
2
100
AcDbEntity
  8
R-SWTS-DET1
100
AcDbLine
 10
2.928420363363272
 20
15.86223046980131
 30
0.0
 11
3.189543294457507
 21
16.10110753870705
 31
0.0
  0
LINE
  5
50
330
2
100
AcDbEntity
  8
R-SWTS-DET1
100
AcDbLine
 10
9.169809593224442
 20
7.577068319471152
 30
0.0
 11
10.82215018326309
 21
7.225852484944695
 31
0.0
  0
LINE
  5
51
330
2
100
AcDbEntity
  8
R-SWTS-DET1
100
AcDbLine
 10
10.82215018326309
 20
7.225852484944709
 30
0.0
 11
13.48061132131465
 21
7.938184999995158
 31
0.0
  0
LINE
  5
52
330
2
100
AcDbEntity
  8
R-SWTS-DET1
100
AcDbLine
 10
13.48061132131465
 20
7.938184999995158
 30
0.0
 11
13.48061132131465
 21
8.638506921183193
 31
0.0
  0
LINE
  5
53
330
2
100
AcDbEntity
  8
R-SWTS-DET1
100
AcDbLine
 10
13.18686366952641
 20
9.001255061115344
 30
0.0
 11
10.326106223527
 21
9.609327827608879
 31
0.0
  0
ARC
  5
54
330
2
100
AcDbEntity
  8
R-SWTS-DET1
100
AcDbCircle
 10
13.10975917215023
 20
8.638506921183193
 30
0.0
 40
0.3708521491644205
100
AcDbArc
 50
0.0
 51
78.00000000000003
  0
LINE
  5
55
330
2
100
AcDbEntity
  8
R-SWTS-DET1
100
AcDbLine
 10
13.48061132131465
 20
7.938184999995158
 30
0.0
 11
19.38259741048074
 21
6.683679129857722
 31
0.0
  0
ARC
  5
56
330
2
100
AcDbEntity
  8
R-SWTS-DET1
100
AcDbCircle
 10
21.80838379719403
 20
7.422707191426198
 30
0.0
 40
0.0860065747895078
100
AcDbArc
 50
285.0
 51
78.00000000000001
  0
LINE
  5
57
330
2
100
AcDbEntity
  8
R-SWTS-DET1
100
AcDbLine
 10
12.11835211682591
 20
2.487230469801318
 30
0.0
 11
19.25552591864845
 21
4.39963042624025
 31
0.0
  0
LINE
  5
58
330
2
100
AcDbEntity
  8
R-SWTS-DET1
100
AcDbLine
 10
21.89439037198354
 20
7.422707191426198
 30
0.0
 11
21.8943903719836
 21
5.172707191426212
 31
0.0
  0
ARC
  5
59
330
2
100
AcDbEntity
  8
R-SWTS-DET1
100
AcDbCircle
 10
21.80838379719409
 20
5.172707191426212
 30
0.0
 40
0.0860065747895078
100
AcDbArc
 50
285.0
 51
0.0
  0
LINE
  5
5A
330
2
100
AcDbEntity
  8
R-SWTS-DET1
100
AcDbLine
 10
19.38259741048074
 20
6.683679129857722
 30
0.0
 11
19.3825974104808
 21
4.565233218560962
 31
0.0
  0
LINE
  5
5B
330
2
100
AcDbEntity
  8
R-SWTS-DET1
100
AcDbLine
 10
13.48061132131465
 20
7.971680364073279
 30
0.0
 11
19.45230597024772
 21
6.702357482152805
 31
0.0
  0
LINE
  5
5C
330
2
100
AcDbEntity
  8
R-SWTS-DET1
100
AcDbLine
 10
19.45230597024772
 20
6.702357482152805
 30
0.0
 11
19.45230597024772
 21
4.675788469183018
 31
0.0
  0
LINE
  5
5D
330
2
100
AcDbEntity
  8
R-SWTS-DET1
100
AcDbLine
 10
19.66812373101345
 20
4.510185676862306
 30
0.0
 11
21.83064393675363
 21
5.08963121960636
 31
0.0
  0
ARC
  5
5E
330
2
100
AcDbEntity
  8
R-SWTS-DET1
100
AcDbCircle
 10
19.21115278418176
 20
4.565233218560962
 30
0.0
 40
0.171444626299035
100
AcDbArc
 50
285.0
 51
0.0
  0
ARC
  5
5F
330
2
100
AcDbEntity
  8
R-SWTS-DET1
100
AcDbCircle
 10
19.62375059654675
 20
4.675788469183018
 30
0.0
 40
0.171444626299035
100
AcDbArc
 50
180.0
 51
284.9999999999997
  0
LINE
  5
60
330
2
100
AcDbEntity
  8
R-SWTS-DET1
100
AcDbLine
 10
19.57374993534688
 20
4.511797024996468
 30
0.0
 11
19.38212598706195
 21
4.552527952577563
 31
0.0
  0
LINE
  5
61
330
2
100
AcDbEntity
  8
R-SWTS-DET1
100
AcDbLine
 10
13.35561132131471
 20
8.034100873492533
 30
0.0
 11
13.35561132131465
 21
8.638506921183193
 31
0.0
  0
ARC
  5
62
330
2
100
AcDbEntity
  8
R-SWTS-DET1
100
AcDbCircle
 10
13.10975917215023
 20
8.638506921183193
 30
0.0
 40
0.2458521491644205
100
AcDbArc
 50
0.0
 51
78.00000000000003
  0
LINE
  5
63
330
2
100
AcDbEntity
  8
R-SWTS-DET1
100
AcDbLine
 10
13.16087470817421
 20
8.87898661102362
 30
0.0
 11
10.326106223527
 21
9.481535253250754
 31
0.0
  0
LINE
  5
64
330
2
100
AcDbEntity
  8
R-SWTS-DET1
100
AcDbLine
 10
10.94715018326303
 20
7.388755656549847
 30
0.0
 11
13.35561132131471
 21
8.034100873492533
 31
0.0
  0
LWPOLYLINE
  5
65
330
2
100
AcDbEntity
  8
R-SWTS-DET1
100
AcDbPolyline
 90
        4
 70
     0
 43
0.0
 10
10.82215018326303
 20
7.225852484944695
 10
10.82215018326303
 20
7.959668055186639
 42
0.3541185725306982
 10
10.62741357012254
 20
8.200147745027067
 10
9.169809593224385
 20
8.509971034633096
  0
LWPOLYLINE
  5
66
330
2
100
AcDbEntity
  8
R-SWTS-DET1
100
AcDbPolyline
 90
        4
 70
     0
 43
0.0
 10
10.94715018326303
 20
7.388755656549847
 10
10.94715018326303
 20
7.959668055186639
 42
0.3541185725307043
 10
10.65340253147474
 20
8.322416195118776
 10
9.169809593224385
 20
8.637763608991221
  0
LINE
  5
67
330
2
100
AcDbEntity
  8
R-SWTS-DET1
100
AcDbLine
 10
10.326106223527
 20
8.678042060640109
 30
0.0
 11
13.35561132131471
 21
8.034100873492533
 31
0.0
  0
LWPOLYLINE
  5
68
330
2
100
AcDbEntity
  8
R-SWTS-DET1
100
AcDbPolyline
 90
        8
 70
     0
 43
0.0
 10
8.586165256769618
 20
11.17794851288205
 10
8.586165256769675
 20
15.2169870248239
 42
0.354118572530699
 10
8.350898933756013
 20
15.50751673814193
 10
7.120944796815933
 20
15.76895156050172
 10
8.657624454706478
 20
16.18070363385882
 10
9.790875888985965
 20
15.93982360548071
 42
-0.3541185725306985
 10
10.32610622352694
 20
15.27886918726477
 10
10.326106223527
 20
8.678042060640109
  0
LWPOLYLINE
  5
69
330
2
100
AcDbEntity
  8
R-SWTS-DET1
100
AcDbPolyline
 90
        8
 70
     0
 43
0.0
 10
8.711165256769618
 20
10.96513333304447
 10
8.711165256769675
 20
15.2169870248239
 42
0.3541185725307135
 10
8.376887895108211
 20
15.62978518823366
 10
7.656218505224501
 20
15.78296819584815
 10
8.660989551126931
 20
16.05219578617588
 10
9.764886927633767
 20
15.81755515538898
 42
-0.3541185725307928
 10
10.201106223527
 20
15.27886918726477
 10
10.201106223527
 20
8.644548411586214
  0
LINE
  5
6A
330
2
100
AcDbEntity
  8
R-SWTS-DET1
100
AcDbLine
 10
9.730781640595068
 20
8.518525319409107
 30
0.0
 11
10.326106223527
 21
8.678042060640109
 31
0.0
  0
LWPOLYLINE
  5
6B
330
2
100
AcDbEntity
  8
R-SWTS-DET1
100
AcDbPolyline
 90
        3
 70
     0
 43
0.0
 10
11.17000717851851
 20
9.429951142225846
 10
11.17000717851851
 20
10.80479867545142
 42
0.2540258143546904
 10
10.32610622352694
 20
12.35866589907408
 42
4.739346094543395
  0
LWPOLYLINE
  5
6C
330
2
100
AcDbEntity
  8
R-SWTS-DET1
100
AcDbPolyline
 90
        3
 70
     0
 43
0.0
 10
10.79500717851851
 20
9.509659852852095
 10
10.79500717851851
 20
10.80479867545142
 42
0.2077709002977103
 10
10.326106223527
 20
11.88449532125137
  0
LINE
  5
6D
330
2
100
AcDbEntity
  8
R-SWTS-DET1
100
AcDbLine
 10
7.120944796815933
 20
15.76895156050172
 30
0.0
 11
7.120944796815933
 21
13.6725177583759
 31
0.0
  0
LWPOLYLINE
  5
6E
330
2
100
AcDbEntity
  8
R-SWTS-DET1
100
AcDbPolyline
 90
        5
 70
     0
 43
0.0
 10
6.347609698830922
 20
14.98913734199503
 10
6.347609698830922
 20
16.17406168973633
 10
6.516357608973919
 20
16.13819321416733
 42
0.0846348937258478
 10
7.874039044381788
 20
16.08307890377062
 42
-0.0669840073305375
 10
8.284892044839637
 20
16.0808302856421
 42
0.1624231919402081
  0
LWPOLYLINE
  5
6F
330
2
100
AcDbEntity
  8
R-SWTS-DET1
100
AcDbPolyline
 90
        4
 70
     0
 43
0.0
 10
6.751128932860865
 20
16.37877212266363
 10
6.919876843003862
 20
16.34290364709463
 42
0.0846348937258478
 10
8.277558278411731
 20
16.28778933669792
 42
-0.166273982944626
 10
8.657624454706478
 20
16.18070363385882
  0
LINE
  5
70
330
2
100
AcDbEntity
  8
R-SWTS-DET1
100
AcDbLine
 10
6.751128932860865
 20
16.37877212266363
 30
0.0
 11
6.347609698830922
 21
16.17406168973633
 31
0.0
  0
ARC
  5
71
330
2
100
AcDbEntity
  8
R-SWTS-DET1
100
AcDbCircle
 10
12.00381883967952
 20
12.30217415307099
 30
0.0
 40
3.073429705768985
100
AcDbArc
 50
271.9473849344931
 51
288.4929472604355
  0
LINE
  5
72
330
2
100
AcDbEntity
  8
R-SWTS-DET1
100
AcDbLine
 10
12.97867361992359
 20
9.387448040082233
 30
0.0
 11
12.97867361992359
 21
9.887448040082233
 31
0.0
  0
ARC
  5
73
330
2
100
AcDbEntity
  8
R-SWTS-DET1
100
AcDbCircle
 10
11.26788692727888
 20
14.56343077305378
 30
0.0
 40
4.979116952510573
100
AcDbArc
 50
268.8736039305708
 51
290.0958936694078
  0
LINE
  5
74
330
2
100
AcDbEntity
  8
R-SWTS-DET1
100
AcDbLine
 10
12.97867361992359
 20
9.887448040082233
 30
0.0
 11
11.17000717851851
 21
10.27189196007523
 31
0.0
  0
ELLIPSE
  5
75
330
2
100
AcDbEntity
  8
R-SWTS-DET1
100
AcDbEllipse
 10
13.33825137668509
 20
4.010343433133357
 30
0.0
 11
0.0
 21
-0.739856661071201
 31
0.0
210
0.0
220
0.0
230
1.0
 40
0.5241795768443082
 41
0.0
 42
6.283185307179586
  0
ELLIPSE
  5
76
330
2
100
AcDbEntity
  8
R-SWTS-DET1
100
AcDbEllipse
 10
12.47038889384725
 20
2.826852699830567
 30
0.0
 11
0.0
 21
-0.1111188958238926
 31
0.0
210
0.0
220
0.0
230
1.0
 40
0.5458335151739223
 41
0.0
 42
6.283185307179586
  0
ELLIPSE
  5
77
330
2
100
AcDbEntity
  8
R-SWTS-DET1
100
AcDbEllipse
 10
17.96593512293662
 20
5.25032755576808
 30
0.0
 11
0.0
 21
-0.739856661071201
 31
0.0
210
0.0
220
0.0
230
1.0
 40
0.5241795768443082
 41
0.0
 42
6.283185307179586
  0
ELLIPSE
  5
78
330
2
100
AcDbEntity
  8
R-SWTS-DET1
100
AcDbEllipse
 10
15.96104454546718
 20
4.713118744622363
 30
0.0
 11
0.0
 21
-0.739856661071201
 31
0.0
210
0.0
220
0.0
230
1.0
 40
0.5241795768443082
 41
0.0
 42
6.283185307179586
  0
ELLIPSE
  5
79
330
2
100
AcDbEntity
  8
R-SWTS-DET1
100
AcDbEllipse
 10
20.60259346540368
 20
5.956818029348909
 30
0.0
 11
0.0
 21
-0.739856661071201
 31
0.0
210
0.0
220
0.0
230
1.0
 40
0.5241795768443082
 41
0.0
 42
6.283185307179586
  0
ELLIPSE
  5
7A
330
2
100
AcDbEntity
  8
R-SWTS-DET1
100
AcDbEllipse
 10
14.60929088536824
 20
3.399969761147929
 30
0.0
 11
0.0
 21
-0.1111188958238926
 31
0.0
210
0.0
220
0.0
230
1.0
 40
0.5458335151739223
 41
0.0
 42
6.283185307179586
  0
ELLIPSE
  5
7B
330
2
100
AcDbEntity
  8
R-SWTS-DET1
100
AcDbEllipse
 10
17.09807264009873
 20
4.06683682246529
 30
0.0
 11
0.0
 21
-0.1111188958238926
 31
0.0
210
0.0
220
0.0
230
1.0
 40
0.5458335151739223
 41
0.0
 42
6.283185307179586
  0
ELLIPSE
  5
7C
330
2
100
AcDbEntity
  8
R-SWTS-DET1
100
AcDbEllipse
 10
18.9412214561467
 20
4.560707059255705
 30
0.0
 11
0.0
 21
-0.1111188958238926
 31
0.0
210
0.0
220
0.0
230
1.0
 40
0.5458335151739223
 41
0.0
 42
6.283185307179586
  0
ELLIPSE
  5
7D
330
2
100
AcDbEntity
  8
R-SWTS-DET1
100
AcDbEllipse
 10
19.70348098256584
 20
4.764953883782652
 30
0.0
 11
0.0
 21
-0.1111188958238926
 31
0.0
210
0.0
220
0.0
230
1.0
 40
0.5458335151739223
 41
0.0
 42
6.283185307179586
  0
ELLIPSE
  5
7E
330
2
100
AcDbEntity
  8
R-SWTS-DET1
100
AcDbEllipse
 10
21.46125321087726
 20
5.235947532836547
 30
0.0
 11
0.0
 21
-0.1111188958238926
 31
0.0
210
0.0
220
0.0
230
1.0
 40
0.5458335151739223
 41
0.0
 42
6.283185307179586
  0
LINE
  5
7F
330
2
100
AcDbEntity
  8
R-SWTS-DET1
100
AcDbLine
 10
8.660989551126931
 20
16.05219578617588
 30
0.0
 11
8.660989551126931
 21
15.41656841989956
 31
0.0
  0
TEXT
  5
86
330
2
100
AcDbEntity
  8
R-ANNO-TEXT
100
AcDbText
 10
0.9430509661781343
 20
18.48649671464335
 30
0.0
 40
0.75
  1
FLOOR
  7
SWTSTEXT
100
AcDbText
  0
TEXT
  5
87
330
2
100
AcDbEntity
  8
R-ANNO-TEXT
100
AcDbText
 10
0.9430509661781343
 20
17.20078242892905
 30
0.0
 40
0.75
  1
COVERING
  7
SWTSTEXT
100
AcDbText
  0
TEXT
  5
88
330
2
100
AcDbEntity
  8
R-ANNO-TEXT
100
AcDbText
 10
23.77942605387534
 20
17.01144612576702
 30
0.0
 40
0.75
  1
STUD (2"x4")
  7
SWTSTEXT
100
AcDbText
  0
TEXT
  5
89
330
2
100
AcDbEntity
  8
R-ANNO-TEXT
100
AcDbText
 10
23.77942605387534
 20
14.44001755433844
 30
0.0
 40
0.75
  1
GYPSUM WALLBOARD (5/8")
  7
SWTSTEXT
100
AcDbText
  0
TEXT
  5
8A
330
2
100
AcDbEntity
  8
R-ANNO-TEXT
100
AcDbText
 10
23.77942605387534
 20
12.06412027665999
 30
0.0
 40
0.75
  1
1/2"(13MM) OR 3/4"(18MM)
  7
SWTSTEXT
100
AcDbText
  0
TEXT
  5
8B
330
2
100
AcDbEntity
  8
R-ANNO-TEXT
100
AcDbText
 10
23.77942605387534
 20
10.7784059909457
 30
0.0
 40
0.75
  1
FIRM-FILL BRAND
  7
SWTSTEXT
100
AcDbText
  0
TEXT
  5
8C
330
2
100
AcDbEntity
  8
R-ANNO-TEXT
100
AcDbText
 10
23.77942605387534
 20
2.758643390458622
 30
0.0
 40
0.75
  1
PRECAST OR 
  7
SWTSTEXT
100
AcDbText
  0
LEADER
  5
8E
330
2
100
AcDbEntity
  8
R-ANNO-TEXT
100
AcDbLeader
  3
SCADARCH
 76
     2
 10
-0.1782232330642728
 20
9.813299041609127
 30
0.0
 10
-0.1782232330642728
 20
17.57914419824959
 30
0.0
1001
ACAD
1000
DSTYLE
1002
{
1070
     6
1000

1070
   341
1005
0
1070
   343
1005
0
1002
}
  0
LEADER
  5
8F
330
2
100
AcDbEntity
  8
R-ANNO-TEXT
100
AcDbLeader
  3
SCADARCH
 76
     3
 10
9.729819669267044
 20
15.35402692193173
 30
0.0
 10
21.56587960447745
 20
17.29421924230467
 30
0.0
 10
23.02205119490668
 20
17.29421924230467
 30
0.0
1001
ACAD
1000
DSTYLE
1002
{
1070
     6
1000

1070
   341
1005
0
1070
   343
1005
0
1002
}
  0
LEADER
  5
90
330
2
100
AcDbEntity
  8
R-ANNO-TEXT
100
AcDbLeader
  3
SCADARCH
 76
     3
 10
10.96196460463988
 20
12.0706258704011
 30
0.0
 10
22.22388820142339
 20
15.08824920338025
 30
0.0
 10
23.20873951830822
 20
15.08824920338025
 30
0.0
1001
ACAD
1000
DSTYLE
1002
{
1070
     6
1000

1070
   341
1005
0
1070
   343
1005
0
1002
}
  0
LEADER
  5
91
330
2
100
AcDbEntity
  8
R-ANNO-TEXT
100
AcDbLeader
  3
SCADARCH
 76
     3
 10
7.373566026773616
 20
8.980506908842066
 30
0.0
 10
22.01393180296599
 20
12.43253006077169
 30
0.0
 10
23.47545387540775
 20
12.43253006077169
 30
0.0
1001
ACAD
1000
DSTYLE
1002
{
1070
     6
1000

1070
   341
1005
0
1070
   343
1005
0
1002
}
  0
TEXT
  5
93
330
2
100
AcDbEntity
  8
R-ANNO-TEXT
100
AcDbText
 10
2.802505759122368
 20
0.0
 30
0.0
 40
1.0
  1
PRE-CAST CONCRETE
  7
SWTSTEXT
100
AcDbText
  0
LINE
  5
95
330
2
100
AcDbEntity
  8
R-SWTS-DET1
100
AcDbLine
 10
12.11835211682591
 20
2.487230469801318
 30
0.0
 11
-1.596535788696201
 21
5.402419886688875
 31
0.0
  0
LEADER
  5
A5
330
2
100
AcDbEntity
  8
R-ANNO-TEXT
100
AcDbLeader
  3
SCADARCH
 76
     3
 10
21.89439037198358
 20
5.875
 30
0.0
 10
22.375
 20
3.125
 30
0.0
 10
23.37499999999999
 20
3.125
 30
0.0
1001
ACAD
1000
DSTYLE
1002
{
1070
     6
1000

1070
   341
1005
0
1070
   343
1005
0
1002
}
  0
LINE
  5
101
330
2
100
AcDbEntity
  8
R-ANNO-TEXT
100
AcDbLine
 10
-0.1782232330642728
 20
17.57914419824959
 30
0.0
 11
0.375
 21
17.57914419824959
 31
0.0
  0
TEXT
  5
110
330
2
100
AcDbEntity
  8
R-ANNO-TEXT
100
AcDbText
 10
23.77942605387534
 20
1.317687637085249
 30
0.0
 40
0.75
  1
CAST-IN-PLACE CONCRETE
  7
SWTSTEXT
100
AcDbText
  0
TEXT
  5
118
330
2
100
AcDbEntity
  8
R-ANNO-TEXT
100
AcDbText
 10
23.77942605387534
 20
-0.8555959556006271
 30
0.0
 40
0.75
  1
GROUT-SAND CEMENT TYPE
  7
SWTSTEXT
100
AcDbText
  0
LEADER
  5
119
330
2
100
AcDbEntity
  8
R-ANNO-TEXT
100
AcDbLeader
  3
SCADARCH
 76
     3
 10
19.4171008889771
 20
6.562829684471772
 30
0.0
 10
22.375
 20
-0.4892393460592502
 30
0.0
 10
23.37499999999999
 20
-0.4892393460592502
 30
0.0
1001
ACAD
1000
DSTYLE
1002
{
1070
     6
1000

1070
   341
1005
0
1070
   343
1005
0
1002
}
  0
TEXT
  5
12D
330
2
100
AcDbEntity
  8
R-ANNO-TEXT
100
AcDbText
 10
23.77942605387534
 20
9.589606109523806
 30
0.0
 40
0.75
  1
GYPSUM CONCRETE
  7
SWTSTEXT
100
AcDbText
  0
POINT
  5
12E
330
2
100
AcDbEntity
  8
0
100
AcDbPoint
 10
-3.878064145057734
 20
-3.578524108810384
 30
0.0
  0
POINT
  5
12F
330
2
100
AcDbEntity
  8
0
100
AcDbPoint
 10
42.02224547609882
 20
21.89507919667934
 30
0.0
  0
ENDSEC
  0
SECTION
  2
OBJECTS
  0
DICTIONARY
  5
1F
330
0
100
AcDbDictionary
281
     1
  3
ACAD_GROUP
350
1D
  3
ACAD_LAYOUT
350
9E
  3
ACAD_MLINESTYLE
350
1E
  3
ACAD_PLOTSETTINGS
350
9F
  3
ACAD_PLOTSTYLENAME
350
9C
  0
DICTIONARY
  5
3
330
2
100
AcDbDictionary
280
     1
281
     1
  3
ACAD_LAYOUTSELFREF
360
F7
  3
ACAD_SORTENTS
360
5
  0
DICTIONARY
  5
B
330
A
100
AcDbDictionary
280
     1
281
     1
  3
ACAD_LAYOUTSELFREF
360
F8
  0
DICTIONARY
  5
1D
102
{ACAD_REACTORS
330
1F
102
}
330
1F
100
AcDbDictionary
281
     1
  0
DICTIONARY
  5
9E
102
{ACAD_REACTORS
330
1F
102
}
330
1F
100
AcDbDictionary
281
     1
  3
Layout1
350
A1
  3
Model
350
A0
  0
DICTIONARY
  5
1E
102
{ACAD_REACTORS
330
1F
102
}
330
1F
100
AcDbDictionary
281
     1
  3
STANDARD
350
24
  0
DICTIONARY
  5
9F
102
{ACAD_REACTORS
330
1F
102
}
330
1F
100
AcDbDictionary
281
     1
  0
ACDBDICTIONARYWDFLT
  5
9C
102
{ACAD_REACTORS
330
1F
102
}
330
1F
100
AcDbDictionary
281
     1
  3
Normal
350
9D
100
AcDbDictionaryWithDefault
340
9D
  0
XRECORD
  5
F7
102
{ACAD_REACTORS
330
3
102
}
330
3
100
AcDbXrecord
280
     1
340
2
  0
SORTENTSTABLE
  5
5
102
{ACAD_REACTORS
330
3
102
}
330
3
100
AcDbSortentsTable
330
2
  0
XRECORD
  5
F8
102
{ACAD_REACTORS
330
B
102
}
330
B
100
AcDbXrecord
280
     1
340
A
  0
LAYOUT
  5
A1
102
{ACAD_REACTORS
330
9E
102
}
330
9E
100
AcDbPlotSettings
  1

  2
Epson LQ-100 ESC/P 2
  4

  6

 40
0.0
 41
0.0
 42
0.0
 43
0.0
 44
0.0
 45
0.0
 46
0.0
 47
0.0
 48
0.0
 49
0.0
140
0.0
141
0.0
142
1.0
143
1.0
 70
   688
 72
     0
 73
     0
 74
     5
  7
Default R14 pen assignments.ctb
 75
    16
147
1.0
148
0.0
149
0.0
100
AcDbLayout
  1
Layout1
 70
     1
 71
     1
 10
0.0
 20
0.0
 11
12.0
 21
9.0
 12
0.0
 22
0.0
 32
0.0
 14
-19.52890750236171
 24
-45.690400130809
 34
0.0
 15
66.90942319586646
 25
22.73872795750724
 35
0.0
146
0.0
 13
0.0
 23
0.0
 33
0.0
 16
1.0
 26
0.0
 36
0.0
 17
0.0
 27
1.0
 37
0.0
 76
     0
330
A
  0
LAYOUT
  5
A0
102
{ACAD_REACTORS
330
9E
102
}
330
9E
100
AcDbPlotSettings
  1

  2
Epson LQ-100 ESC/P 2
  4

  6

 40
0.0
 41
0.0
 42
0.0
 43
0.0
 44
0.0
 45
0.0
 46
0.0
 47
0.0
 48
0.0
 49
0.0
140
0.0
141
0.0
142
1.0
143
1.0
 70
  1712
 72
     0
 73
     0
 74
     0
  7
Default R14 pen assignments.ctb
 75
     0
147
1.0
148
0.0
149
0.0
100
AcDbLayout
  1
Model
 70
     1
 71
     0
 10
0.0
 20
0.0
 11
12.0
 21
9.0
 12
0.0
 22
0.0
 32
0.0
 14
0.0
 24
0.0
 34
0.0
 15
0.0
 25
0.0
 35
0.0
146
0.0
 13
0.0
 23
0.0
 33
0.0
 16
1.0
 26
0.0
 36
0.0
 17
0.0
 27
1.0
 37
0.0
 76
     0
330
2
  0
MLINESTYLE
  5
24
102
{ACAD_REACTORS
330
1E
102
}
330
1E
100
AcDbMlineStyle
  2
STANDARD
 70
     0
  3

 62
   256
 51
90.0
 52
90.0
 71
     2
 49
0.5
 62
   256
  6
BYLAYER
 49
-0.5
 62
   256
  6
BYLAYER
  0
ACDBPLACEHOLDER
  5
9D
102
{ACAD_REACTORS
330
9C
102
}
330
9C
  0
ENDSEC
  0
EOF
